ISO-10303-21;
HEADER;
FILE_DESCRIPTION (( 'STEP AP203' ),
    '1' );
FILE_NAME ('Q-OZHWP-R2-20-894-M.STEP',
    '2020-12-22T09:17:34',
    ( '' ),
    ( '' ),
    'SwSTEP 2.0',
    'SolidWorks 2020',
    '' );
FILE_SCHEMA (( 'CONFIG_CONTROL_DESIGN' ));
ENDSEC;

DATA;
#1 = DIRECTION ( 'NONE',  ( -1.000000000000000000, -0.000000000000000000, -0.000000000000000000 ) ) ;
#2 = DIRECTION ( 'NONE',  ( 0.000000000000000000, 0.000000000000000000, 1.000000000000000000 ) ) ;
#3 = EDGE_CURVE ( 'NONE', #245, #91, #17, .T. ) ;
#4 = DIRECTION ( 'NONE',  ( -1.000000000000000000, 0.000000000000000000, -0.000000000000000000 ) ) ;
#5 = CARTESIAN_POINT ( 'NONE',  ( 2.999999999999999112, 0.000000000000000000, 10.00000000000000000 ) ) ;
#6 = ADVANCED_FACE ( 'NONE', ( #200 ), #203, .T. ) ;
#7 = CC_DESIGN_SECURITY_CLASSIFICATION ( #13, ( #309 ) ) ;
#8 = LINE ( 'NONE', #162, #276 ) ;
#9 = ADVANCED_FACE ( 'NONE', ( #50 ), #222, .F. ) ;
#10 = DIRECTION ( 'NONE',  ( -1.000000000000000000, -0.000000000000000000, -0.000000000000000000 ) ) ;
#11 = ADVANCED_FACE ( 'NONE', ( #308 ), #224, .T. ) ;
#12 = CARTESIAN_POINT ( 'NONE',  ( 3.000000000000000000, 0.000000000000000000, 0.000000000000000000 ) ) ;
#13 = SECURITY_CLASSIFICATION ( '', '', #44 ) ;
#14 = PERSON_AND_ORGANIZATION ( #186, #330 ) ;
#15 = EDGE_LOOP ( 'NONE', ( #227, #294 ) ) ;
#16 = APPROVAL_PERSON_ORGANIZATION ( #14, #130, #254 ) ;
#17 = CIRCLE ( 'NONE', #292, 10.00000000000000000 ) ;
#18 = CC_DESIGN_PERSON_AND_ORGANIZATION_ASSIGNMENT ( #39, #170, ( #253 ) ) ;
#19 = EDGE_LOOP ( 'NONE', ( #335, #68 ) ) ;
#20 = DIRECTION ( 'NONE',  ( -1.000000000000000000, 0.000000000000000000, -0.000000000000000000 ) ) ;
#21 = DATE_AND_TIME ( #125, #117 ) ;
#22 = EDGE_LOOP ( 'NONE', ( #96, #147, #306, #256 ) ) ;
#23 = VERTEX_POINT ( 'NONE', #77 ) ;
#24 = APPROVAL_ROLE ( '' ) ;
#25 = EDGE_LOOP ( 'NONE', ( #249, #158 ) ) ;
#26 = PRODUCT_DEFINITION ( 'UNKNOWN', '', #309, #240 ) ;
#27 = LINE ( 'NONE', #333, #127 ) ;
#28 = DATE_AND_TIME ( #90, #74 ) ;
#29 = DIRECTION ( 'NONE',  ( -1.000000000000000000, -0.000000000000000000, -0.000000000000000000 ) ) ;
#30 = CARTESIAN_POINT ( 'NONE',  ( -3.000000000000000000, 10.00000000000000000, 0.000000000000000000 ) ) ;
#31 = EDGE_CURVE ( 'NONE', #91, #23, #71, .T. ) ;
#32 = DIRECTION ( 'NONE',  ( -0.000000000000000000, 0.000000000000000000, 1.000000000000000000 ) ) ;
#33 = AXIS2_PLACEMENT_3D ( 'NONE', #12, #111, #190 ) ;
#34 = CARTESIAN_POINT ( 'NONE',  ( 2.500000000000000888, 1.224646799147353256E-15, -10.00000000000000000 ) ) ;
#35 = CARTESIAN_POINT ( 'NONE',  ( 2.500000000000000888, 0.000000000000000000, 0.000000000000000000 ) ) ;
#36 = ADVANCED_FACE ( 'NONE', ( #129, #75 ), #226, .F. ) ;
#37 = DIRECTION ( 'NONE',  ( -1.000000000000000000, -0.000000000000000000, -0.000000000000000000 ) ) ;
#38 = VECTOR ( 'NONE', #82, 1000.000000000000000 ) ;
#39 = PERSON_AND_ORGANIZATION ( #186, #330 ) ;
#40 = DIRECTION ( 'NONE',  ( 0.000000000000000000, 0.000000000000000000, 1.000000000000000000 ) ) ;
#41 = CYLINDRICAL_SURFACE ( 'NONE', #157, 10.00000000000000000 ) ;
#42 = CC_DESIGN_APPROVAL ( #211, ( #26 ) ) ;
#43 = CC_DESIGN_DATE_AND_TIME_ASSIGNMENT ( #28, #52, ( #13 ) ) ;
#44 = SECURITY_CLASSIFICATION_LEVEL ( 'unclassified' ) ;
#45 = DIRECTION ( 'NONE',  ( -1.000000000000000000, -0.000000000000000000, -0.000000000000000000 ) ) ;
#46 = CC_DESIGN_APPROVAL ( #258, ( #13 ) ) ;
#47 = CIRCLE ( 'NONE', #33, 12.69999999999999929 ) ;
#48 = EDGE_CURVE ( 'NONE', #177, #280, #206, .T. ) ;
#49 = PERSON_AND_ORGANIZATION ( #186, #330 ) ;
#50 = FACE_OUTER_BOUND ( 'NONE', #15, .T. ) ;
#51 = EDGE_CURVE ( 'NONE', #245, #301, #27, .T. ) ;
#52 = DATE_TIME_ROLE ( 'classification_date' ) ;
#53 = ORIENTED_EDGE ( 'NONE', *, *, #149, .T. ) ;
#54 = DIRECTION ( 'NONE',  ( 0.000000000000000000, 0.000000000000000000, 1.000000000000000000 ) ) ;
#55 = ORIENTED_EDGE ( 'NONE', *, *, #149, .F. ) ;
#56 = CIRCLE ( 'NONE', #233, 10.00000000000000000 ) ;
#57 = DIRECTION ( 'NONE',  ( 0.000000000000000000, 0.000000000000000000, 1.000000000000000000 ) ) ;
#58 = CARTESIAN_POINT ( 'NONE',  ( -1.614212418857619014, 0.000000000000000000, 0.000000000000000000 ) ) ;
#59 = LINE ( 'NONE', #163, #81 ) ;
#60 = DIRECTION ( 'NONE',  ( -1.000000000000000000, -0.000000000000000000, -0.000000000000000000 ) ) ;
#61 = FACE_OUTER_BOUND ( 'NONE', #156, .T. ) ;
#62 = CARTESIAN_POINT ( 'NONE',  ( 3.000000000000000000, 1.555301434917138433E-15, -12.69999999999999929 ) ) ;
#63 = LOCAL_TIME ( 17, 17, 34.00000000000000000, #86 ) ;
#64 = DIRECTION ( 'NONE',  ( -1.000000000000000000, -0.000000000000000000, -0.000000000000000000 ) ) ;
#65 = DIRECTION ( 'NONE',  ( 0.000000000000000000, 0.000000000000000000, 1.000000000000000000 ) ) ;
#66 = EDGE_CURVE ( 'NONE', #302, #151, #87, .T. ) ;
#67 = AXIS2_PLACEMENT_3D ( 'NONE', #275, #45, #120 ) ;
#68 = ORIENTED_EDGE ( 'NONE', *, *, #131, .T. ) ;
#69 = CC_DESIGN_PERSON_AND_ORGANIZATION_ASSIGNMENT ( #324, #281, ( #309 ) ) ;
#70 = EDGE_LOOP ( 'NONE', ( #194, #221, #277, #55 ) ) ;
#71 = LINE ( 'NONE', #304, #191 ) ;
#72 = ORIENTED_EDGE ( 'NONE', *, *, #192, .T. ) ;
#73 = DIRECTION ( 'NONE',  ( -1.000000000000000000, -0.000000000000000000, -0.000000000000000000 ) ) ;
#74 = LOCAL_TIME ( 17, 17, 34.00000000000000000, #305 ) ;
#75 = FACE_BOUND ( 'NONE', #25, .T. ) ;
#76 = EDGE_LOOP ( 'NONE', ( #172, #278 ) ) ;
#77 = CARTESIAN_POINT ( 'NONE',  ( -3.000000000000000444, 0.000000000000000000, 10.00000000000000000 ) ) ;
#78 = DIRECTION ( 'NONE',  ( 0.000000000000000000, 0.000000000000000000, 1.000000000000000000 ) ) ;
#79 = CARTESIAN_POINT ( 'NONE',  ( -2.500000000000000444, 0.000000000000000000, 10.00000000000000000 ) ) ;
#80 = FACE_BOUND ( 'NONE', #155, .T. ) ;
#81 = VECTOR ( 'NONE', #184, 1000.000000000000000 ) ;
#82 = DIRECTION ( 'NONE',  ( -1.000000000000000000, -0.000000000000000000, -0.000000000000000000 ) ) ;
#83 = DIRECTION ( 'NONE',  ( 1.000000000000000000, 0.000000000000000000, 0.000000000000000000 ) ) ;
#84 = PERSON_AND_ORGANIZATION_ROLE ( 'creator' ) ;
#85 = CARTESIAN_POINT ( 'NONE',  ( -1.614212418857619014, 0.000000000000000000, 0.000000000000000000 ) ) ;
#86 = COORDINATED_UNIVERSAL_TIME_OFFSET ( 8, 0, .AHEAD. ) ;
#87 = CIRCLE ( 'NONE', #67, 12.69999999999999929 ) ;
#88 = EDGE_LOOP ( 'NONE', ( #92, #321, #72, #274 ) ) ;
#89 = APPLICATION_CONTEXT ( 'configuration controlled 3d designs of mechanical parts and assemblies' ) ;
#90 = CALENDAR_DATE ( 2020, 22, 12 ) ;
#91 = VERTEX_POINT ( 'NONE', #79 ) ;
#92 = ORIENTED_EDGE ( 'NONE', *, *, #143, .F. ) ;
#93 = EDGE_LOOP ( 'NONE', ( #198, #216, #53, #299 ) ) ;
#94 = DIRECTION ( 'NONE',  ( 1.000000000000000000, 0.000000000000000000, 0.000000000000000000 ) ) ;
#95 = CIRCLE ( 'NONE', #284, 12.69999999999999929 ) ;
#96 = ORIENTED_EDGE ( 'NONE', *, *, #51, .F. ) ;
#97 = APPROVAL_STATUS ( 'not_yet_approved' ) ;
#98 = DIRECTION ( 'NONE',  ( 0.000000000000000000, 0.000000000000000000, -1.000000000000000000 ) ) ;
#99 = CC_DESIGN_PERSON_AND_ORGANIZATION_ASSIGNMENT ( #49, #115, ( #309 ) ) ;
#100 = CARTESIAN_POINT ( 'NONE',  ( -3.000000000000000444, 0.000000000000000000, 0.000000000000000000 ) ) ;
#101 = AXIS2_PLACEMENT_3D ( 'NONE', #30, #137, #209 ) ;
#102 = DIRECTION ( 'NONE',  ( 0.000000000000000000, 0.000000000000000000, 1.000000000000000000 ) ) ;
#103 = PLANE ( 'NONE',  #139 ) ;
#104 = CARTESIAN_POINT ( 'NONE',  ( -2.500000000000000444, 1.224646799147353256E-15, -10.00000000000000000 ) ) ;
#105 = DIRECTION ( 'NONE',  ( 0.000000000000000000, 0.000000000000000000, 1.000000000000000000 ) ) ;
#106 = EDGE_CURVE ( 'NONE', #301, #23, #56, .T. ) ;
#107 = APPROVAL_STATUS ( 'not_yet_approved' ) ;
#108 = DIRECTION ( 'NONE',  ( 0.000000000000000000, 0.000000000000000000, 1.000000000000000000 ) ) ;
#109 = CIRCLE ( 'NONE', #181, 10.00000000000000000 ) ;
#110 = APPROVAL_PERSON_ORGANIZATION ( #146, #211, #238 ) ;
#111 = DIRECTION ( 'NONE',  ( -1.000000000000000000, -0.000000000000000000, -0.000000000000000000 ) ) ;
#112 = MECHANICAL_CONTEXT ( 'NONE', #124, 'mechanical' ) ;
#113 = CYLINDRICAL_SURFACE ( 'NONE', #317, 10.00000000000000000 ) ;
#114 = ORIENTED_EDGE ( 'NONE', *, *, #171, .F. ) ;
#115 = PERSON_AND_ORGANIZATION_ROLE ( 'design_supplier' ) ;
#116 = AXIS2_PLACEMENT_3D ( 'NONE', #323, #126, #199 ) ;
#117 = LOCAL_TIME ( 17, 17, 34.00000000000000000, #128 ) ;
#118 = CARTESIAN_POINT ( 'NONE',  ( 2.999999999999999112, 12.69999999999999929, 0.000000000000000000 ) ) ;
#119 = ORIENTED_EDGE ( 'NONE', *, *, #106, .F. ) ;
#120 = DIRECTION ( 'NONE',  ( 0.000000000000000000, 0.000000000000000000, 1.000000000000000000 ) ) ;
#121 = APPROVAL_DATE_TIME ( #21, #258 ) ;
#122 = VERTEX_POINT ( 'NONE', #34 ) ;
#123 = EDGE_LOOP ( 'NONE', ( #329, #328, #225, #247 ) ) ;
#124 = APPLICATION_CONTEXT ( 'configuration controlled 3d designs of mechanical parts and assemblies' ) ;
#125 = CALENDAR_DATE ( 2020, 22, 12 ) ;
#126 = DIRECTION ( 'NONE',  ( -1.000000000000000000, -0.000000000000000000, -0.000000000000000000 ) ) ;
#127 = VECTOR ( 'NONE', #29, 1000.000000000000000 ) ;
#128 = COORDINATED_UNIVERSAL_TIME_OFFSET ( 8, 0, .AHEAD. ) ;
#129 = FACE_OUTER_BOUND ( 'NONE', #76, .T. ) ;
#130 = APPROVAL ( #97, 'UNSPECIFIED' ) ;
#131 = EDGE_CURVE ( 'NONE', #280, #177, #95, .T. ) ;
#132 = AXIS2_PLACEMENT_3D ( 'NONE', #85, #320, #65 ) ;
#133 = DIRECTION ( 'NONE',  ( 0.000000000000000000, 0.000000000000000000, 1.000000000000000000 ) ) ;
#134 = CC_DESIGN_APPROVAL ( #130, ( #309 ) ) ;
#135 = CIRCLE ( 'NONE', #150, 10.00000000000000000 ) ;
#136 = DIRECTION ( 'NONE',  ( -1.000000000000000000, -0.000000000000000000, -0.000000000000000000 ) ) ;
#137 = DIRECTION ( 'NONE',  ( 1.000000000000000000, 0.000000000000000000, 0.000000000000000000 ) ) ;
#138 = DIRECTION ( 'NONE',  ( -1.000000000000000000, -0.000000000000000000, -0.000000000000000000 ) ) ;
#139 = AXIS2_PLACEMENT_3D ( 'NONE', #259, #4, #32 ) ;
#140 = APPROVAL_DATE_TIME ( #298, #211 ) ;
#141 = CC_DESIGN_PERSON_AND_ORGANIZATION_ASSIGNMENT ( #250, #217, ( #13 ) ) ;
#142 = CALENDAR_DATE ( 2020, 22, 12 ) ;
#143 = EDGE_CURVE ( 'NONE', #176, #122, #8, .T. ) ;
#144 = CYLINDRICAL_SURFACE ( 'NONE', #132, 10.00000000000000000 ) ;
#145 =( NAMED_UNIT ( * ) PLANE_ANGLE_UNIT ( ) SI_UNIT ( $, .RADIAN. ) );
#146 = PERSON_AND_ORGANIZATION ( #186, #330 ) ;
#147 = ORIENTED_EDGE ( 'NONE', *, *, #3, .T. ) ;
#148 = ADVANCED_FACE ( 'NONE', ( #61 ), #103, .F. ) ;
#149 = EDGE_CURVE ( 'NONE', #302, #177, #313, .T. ) ;
#150 = AXIS2_PLACEMENT_3D ( 'NONE', #311, #136, #78 ) ;
#151 = VERTEX_POINT ( 'NONE', #62 ) ;
#152 = CARTESIAN_POINT ( 'NONE',  ( -1.614212418857619014, 0.000000000000000000, 0.000000000000000000 ) ) ;
#153 = DATE_AND_TIME ( #187, #243 ) ;
#154 = EDGE_LOOP ( 'NONE', ( #175, #179, #272, #218 ) ) ;
#155 = EDGE_LOOP ( 'NONE', ( #114, #119 ) ) ;
#156 = EDGE_LOOP ( 'NONE', ( #326, #223 ) ) ;
#157 = AXIS2_PLACEMENT_3D ( 'NONE', #167, #10, #108 ) ;
#158 = ORIENTED_EDGE ( 'NONE', *, *, #214, .T. ) ;
#159 = DIRECTION ( 'NONE',  ( 0.000000000000000000, 0.000000000000000000, -1.000000000000000000 ) ) ;
#160 = FACE_OUTER_BOUND ( 'NONE', #154, .T. ) ;
#161 = CARTESIAN_POINT ( 'NONE',  ( -1.614212418857619014, 0.000000000000000000, 12.69999999999999929 ) ) ;
#162 = CARTESIAN_POINT ( 'NONE',  ( -1.614212418857619014, 1.224646799147353256E-15, -10.00000000000000000 ) ) ;
#163 = CARTESIAN_POINT ( 'NONE',  ( -1.614212418857619014, 0.000000000000000000, 10.00000000000000000 ) ) ;
#164 = EDGE_CURVE ( 'NONE', #91, #245, #288, .T. ) ;
#165 = DIRECTION ( 'NONE',  ( 0.000000000000000000, 0.000000000000000000, -1.000000000000000000 ) ) ;
#166 =( LENGTH_UNIT ( ) NAMED_UNIT ( * ) SI_UNIT ( .MILLI., .METRE. ) );
#167 = CARTESIAN_POINT ( 'NONE',  ( -1.614212418857619014, 0.000000000000000000, 0.000000000000000000 ) ) ;
#168 =( GEOMETRIC_REPRESENTATION_CONTEXT ( 3 ) GLOBAL_UNCERTAINTY_ASSIGNED_CONTEXT ( ( #327 ) ) GLOBAL_UNIT_ASSIGNED_CONTEXT ( ( #166, #145, #319 ) ) REPRESENTATION_CONTEXT ( 'NONE', 'WORKASPACE' ) );
#169 = CIRCLE ( 'NONE', #332, 10.00000000000000000 ) ;
#170 = PERSON_AND_ORGANIZATION_ROLE ( 'design_owner' ) ;
#171 = EDGE_CURVE ( 'NONE', #23, #301, #169, .T. ) ;
#172 = ORIENTED_EDGE ( 'NONE', *, *, #66, .F. ) ;
#173 = ADVANCED_FACE ( 'NONE', ( #80, #205 ), #289, .F. ) ;
#174 = DIRECTION ( 'NONE',  ( -1.000000000000000000, -0.000000000000000000, -0.000000000000000000 ) ) ;
#175 = ORIENTED_EDGE ( 'NONE', *, *, #164, .T. ) ;
#176 = VERTEX_POINT ( 'NONE', #291 ) ;
#177 = VERTEX_POINT ( 'NONE', #231 ) ;
#178 = DIRECTION ( 'NONE',  ( -0.000000000000000000, 0.000000000000000000, 1.000000000000000000 ) ) ;
#179 = ORIENTED_EDGE ( 'NONE', *, *, #51, .T. ) ;
#180 = DIRECTION ( 'NONE',  ( 1.000000000000000000, 0.000000000000000000, 0.000000000000000000 ) ) ;
#181 = AXIS2_PLACEMENT_3D ( 'NONE', #35, #229, #102 ) ;
#182 = CARTESIAN_POINT ( 'NONE',  ( 2.500000000000000888, 0.000000000000000000, 0.000000000000000000 ) ) ;
#183 = CARTESIAN_POINT ( 'NONE',  ( -3.000000000000000444, 0.000000000000000000, 0.000000000000000000 ) ) ;
#184 = DIRECTION ( 'NONE',  ( -1.000000000000000000, -0.000000000000000000, -0.000000000000000000 ) ) ;
#185 = DIRECTION ( 'NONE',  ( -1.000000000000000000, -0.000000000000000000, -0.000000000000000000 ) ) ;
#186 = PERSON ( 'UNSPECIFIED', 'UNSPECIFIED', 'UNSPECIFIED', ('UNSPECIFIED'), ('UNSPECIFIED'), ('UNSPECIFIED') ) ;
#187 = CALENDAR_DATE ( 2020, 22, 12 ) ;
#188 = AXIS2_PLACEMENT_3D ( 'NONE', #58, #262, #133 ) ;
#189 = CARTESIAN_POINT ( 'NONE',  ( 0.000000000000000000, 0.000000000000000000, 0.000000000000000000 ) ) ;
#190 = DIRECTION ( 'NONE',  ( 0.000000000000000000, 0.000000000000000000, 1.000000000000000000 ) ) ;
#191 = VECTOR ( 'NONE', #174, 1000.000000000000000 ) ;
#192 = EDGE_CURVE ( 'NONE', #239, #325, #59, .T. ) ;
#193 = PRODUCT_RELATED_PRODUCT_CATEGORY ( 'detail', '', ( #253 ) ) ;
#194 = ORIENTED_EDGE ( 'NONE', *, *, #66, .T. ) ;
#195 = DIRECTION ( 'NONE',  ( -1.000000000000000000, -0.000000000000000000, -0.000000000000000000 ) ) ;
#196 = COORDINATED_UNIVERSAL_TIME_OFFSET ( 8, 0, .AHEAD. ) ;
#197 = LOCAL_TIME ( 17, 17, 34.00000000000000000, #196 ) ;
#198 = ORIENTED_EDGE ( 'NONE', *, *, #283, .F. ) ;
#199 = DIRECTION ( 'NONE',  ( 0.000000000000000000, 0.000000000000000000, 1.000000000000000000 ) ) ;
#200 = FACE_OUTER_BOUND ( 'NONE', #93, .T. ) ;
#201 = PRODUCT_DEFINITION_SHAPE ( 'NONE', 'NONE',  #26 ) ;
#202 = DATE_TIME_ROLE ( 'creation_date' ) ;
#203 = CYLINDRICAL_SURFACE ( 'NONE', #297, 12.69999999999999929 ) ;
#204 = APPROVAL_PERSON_ORGANIZATION ( #219, #258, #24 ) ;
#205 = FACE_OUTER_BOUND ( 'NONE', #19, .T. ) ;
#206 = CIRCLE ( 'NONE', #316, 12.69999999999999929 ) ;
#207 = CC_DESIGN_PERSON_AND_ORGANIZATION_ASSIGNMENT ( #213, #84, ( #26 ) ) ;
#208 = CARTESIAN_POINT ( 'NONE',  ( -1.614212418857619014, 1.555301434917138433E-15, -12.69999999999999929 ) ) ;
#209 = DIRECTION ( 'NONE',  ( 0.000000000000000000, 0.000000000000000000, -1.000000000000000000 ) ) ;
#210 = CIRCLE ( 'NONE', #310, 10.00000000000000000 ) ;
#211 = APPROVAL ( #107, 'UNSPECIFIED' ) ;
#212 = DIRECTION ( 'NONE',  ( -1.000000000000000000, -0.000000000000000000, -0.000000000000000000 ) ) ;
#213 = PERSON_AND_ORGANIZATION ( #186, #330 ) ;
#214 = EDGE_CURVE ( 'NONE', #176, #239, #135, .T. ) ;
#215 = FACE_OUTER_BOUND ( 'NONE', #123, .T. ) ;
#216 = ORIENTED_EDGE ( 'NONE', *, *, #318, .T. ) ;
#217 = PERSON_AND_ORGANIZATION_ROLE ( 'classification_officer' ) ;
#218 = ORIENTED_EDGE ( 'NONE', *, *, #31, .F. ) ;
#219 = PERSON_AND_ORGANIZATION ( #186, #330 ) ;
#220 = EDGE_CURVE ( 'NONE', #325, #122, #303, .T. ) ;
#221 = ORIENTED_EDGE ( 'NONE', *, *, #283, .T. ) ;
#222 = PLANE ( 'NONE',  #236 ) ;
#223 = ORIENTED_EDGE ( 'NONE', *, *, #271, .F. ) ;
#224 = CYLINDRICAL_SURFACE ( 'NONE', #116, 12.69999999999999929 ) ;
#225 = ORIENTED_EDGE ( 'NONE', *, *, #271, .T. ) ;
#226 = PLANE ( 'NONE',  #269 ) ;
#227 = ORIENTED_EDGE ( 'NONE', *, *, #164, .F. ) ;
#228 = DIRECTION ( 'NONE',  ( 0.000000000000000000, 0.000000000000000000, 1.000000000000000000 ) ) ;
#229 = DIRECTION ( 'NONE',  ( -1.000000000000000000, -0.000000000000000000, -0.000000000000000000 ) ) ;
#230 = CARTESIAN_POINT ( 'NONE',  ( -3.000000000000000000, 0.000000000000000000, 0.000000000000000000 ) ) ;
#231 = CARTESIAN_POINT ( 'NONE',  ( -3.000000000000000000, 0.000000000000000000, 12.69999999999999929 ) ) ;
#232 = DIRECTION ( 'NONE',  ( -1.000000000000000000, -0.000000000000000000, -0.000000000000000000 ) ) ;
#233 = AXIS2_PLACEMENT_3D ( 'NONE', #100, #138, #2 ) ;
#234 = ADVANCED_FACE ( 'NONE', ( #160 ), #285, .F. ) ;
#235 = FACE_OUTER_BOUND ( 'NONE', #22, .T. ) ;
#236 = AXIS2_PLACEMENT_3D ( 'NONE', #255, #94, #159 ) ;
#237 = CARTESIAN_POINT ( 'NONE',  ( 2.500000000000000888, 0.000000000000000000, 10.00000000000000000 ) ) ;
#238 = APPROVAL_ROLE ( '' ) ;
#239 = VERTEX_POINT ( 'NONE', #5 ) ;
#240 = DESIGN_CONTEXT ( 'detailed design', #89, 'design' ) ;
#241 = CC_DESIGN_DATE_AND_TIME_ASSIGNMENT ( #153, #202, ( #26 ) ) ;
#242 = APPROVAL_DATE_TIME ( #300, #130 ) ;
#243 = LOCAL_TIME ( 17, 17, 34.00000000000000000, #315 ) ;
#244 = AXIS2_PLACEMENT_3D ( 'NONE', #290, #83, #165 ) ;
#245 = VERTEX_POINT ( 'NONE', #104 ) ;
#246 = MANIFOLD_SOLID_BREP ( 'Ðý×', #265 ) ;
#247 = ORIENTED_EDGE ( 'NONE', *, *, #192, .F. ) ;
#248 = APPROVAL_STATUS ( 'not_yet_approved' ) ;
#249 = ORIENTED_EDGE ( 'NONE', *, *, #287, .T. ) ;
#250 = PERSON_AND_ORGANIZATION ( #186, #330 ) ;
#251 = CARTESIAN_POINT ( 'NONE',  ( -2.500000000000000444, 0.000000000000000000, 0.000000000000000000 ) ) ;
#252 = AXIS2_PLACEMENT_3D ( 'NONE', #189, #293, #295 ) ;
#253 = PRODUCT ( 'Q-OZHWP-R2-20-894-M', 'Q-OZHWP-R2-20-894-M', '', ( #112 ) ) ;
#254 = APPROVAL_ROLE ( '' ) ;
#255 = CARTESIAN_POINT ( 'NONE',  ( -2.500000000000000444, 10.00000000000000000, 0.000000000000000000 ) ) ;
#256 = ORIENTED_EDGE ( 'NONE', *, *, #171, .T. ) ;
#257 = ADVANCED_BREP_SHAPE_REPRESENTATION ( 'Q-OZHWP-R2-20-894-M', ( #246, #252 ), #168 ) ;
#258 = APPROVAL ( #248, 'UNSPECIFIED' ) ;
#259 = CARTESIAN_POINT ( 'NONE',  ( 2.500000000000000444, 10.00000000000000000, 0.000000000000000000 ) ) ;
#260 = VECTOR ( 'NONE', #212, 1000.000000000000000 ) ;
#261 = CARTESIAN_POINT ( 'NONE',  ( -3.000000000000000000, 1.555301434917138433E-15, -12.69999999999999929 ) ) ;
#262 = DIRECTION ( 'NONE',  ( -1.000000000000000000, -0.000000000000000000, -0.000000000000000000 ) ) ;
#263 = CARTESIAN_POINT ( 'NONE',  ( 2.999999999999999112, 0.000000000000000000, 0.000000000000000000 ) ) ;
#264 = APPLICATION_PROTOCOL_DEFINITION ( 'international standard', 'config_control_design', 1994, #124 ) ;
#265 = CLOSED_SHELL ( 'NONE', ( #11, #234, #331, #148, #307, #334, #173, #6, #36, #9 ) ) ;
#266 = CARTESIAN_POINT ( 'NONE',  ( -3.000000000000000444, 1.224646799147353256E-15, -10.00000000000000000 ) ) ;
#267 = CARTESIAN_POINT ( 'NONE',  ( 3.000000000000000000, 0.000000000000000000, 12.69999999999999929 ) ) ;
#268 = FACE_OUTER_BOUND ( 'NONE', #88, .T. ) ;
#269 = AXIS2_PLACEMENT_3D ( 'NONE', #118, #20, #178 ) ;
#270 = APPLICATION_PROTOCOL_DEFINITION ( 'international standard', 'config_control_design', 1994, #89 ) ;
#271 = EDGE_CURVE ( 'NONE', #122, #325, #109, .T. ) ;
#272 = ORIENTED_EDGE ( 'NONE', *, *, #106, .T. ) ;
#273 = SHAPE_DEFINITION_REPRESENTATION ( #201, #257 ) ;
#274 = ORIENTED_EDGE ( 'NONE', *, *, #220, .T. ) ;
#275 = CARTESIAN_POINT ( 'NONE',  ( 3.000000000000000000, 0.000000000000000000, 0.000000000000000000 ) ) ;
#276 = VECTOR ( 'NONE', #185, 1000.000000000000000 ) ;
#277 = ORIENTED_EDGE ( 'NONE', *, *, #48, .F. ) ;
#278 = ORIENTED_EDGE ( 'NONE', *, *, #318, .F. ) ;
#279 = CALENDAR_DATE ( 2020, 22, 12 ) ;
#280 = VERTEX_POINT ( 'NONE', #261 ) ;
#281 = PERSON_AND_ORGANIZATION_ROLE ( 'creator' ) ;
#282 = CARTESIAN_POINT ( 'NONE',  ( -3.000000000000000000, 0.000000000000000000, 0.000000000000000000 ) ) ;
#283 = EDGE_CURVE ( 'NONE', #151, #280, #314, .T. ) ;
#284 = AXIS2_PLACEMENT_3D ( 'NONE', #230, #232, #228 ) ;
#285 = CYLINDRICAL_SURFACE ( 'NONE', #188, 10.00000000000000000 ) ;
#286 = DIRECTION ( 'NONE',  ( 0.000000000000000000, 0.000000000000000000, 1.000000000000000000 ) ) ;
#287 = EDGE_CURVE ( 'NONE', #239, #176, #210, .T. ) ;
#288 = CIRCLE ( 'NONE', #244, 10.00000000000000000 ) ;
#289 = PLANE ( 'NONE',  #101 ) ;
#290 = CARTESIAN_POINT ( 'NONE',  ( -2.500000000000000444, 0.000000000000000000, 0.000000000000000000 ) ) ;
#291 = CARTESIAN_POINT ( 'NONE',  ( 2.999999999999999112, 1.224646799147353256E-15, -10.00000000000000000 ) ) ;
#292 = AXIS2_PLACEMENT_3D ( 'NONE', #251, #180, #98 ) ;
#293 = DIRECTION ( 'NONE',  ( 0.000000000000000000, 0.000000000000000000, 1.000000000000000000 ) ) ;
#294 = ORIENTED_EDGE ( 'NONE', *, *, #3, .F. ) ;
#295 = DIRECTION ( 'NONE',  ( 1.000000000000000000, 0.000000000000000000, 0.000000000000000000 ) ) ;
#296 = CARTESIAN_POINT ( 'NONE',  ( -1.614212418857619014, 0.000000000000000000, 0.000000000000000000 ) ) ;
#297 = AXIS2_PLACEMENT_3D ( 'NONE', #152, #73, #57 ) ;
#298 = DATE_AND_TIME ( #142, #63 ) ;
#299 = ORIENTED_EDGE ( 'NONE', *, *, #131, .F. ) ;
#300 = DATE_AND_TIME ( #279, #197 ) ;
#301 = VERTEX_POINT ( 'NONE', #266 ) ;
#302 = VERTEX_POINT ( 'NONE', #267 ) ;
#303 = CIRCLE ( 'NONE', #322, 10.00000000000000000 ) ;
#304 = CARTESIAN_POINT ( 'NONE',  ( -1.614212418857619014, 0.000000000000000000, 10.00000000000000000 ) ) ;
#305 = COORDINATED_UNIVERSAL_TIME_OFFSET ( 8, 0, .AHEAD. ) ;
#306 = ORIENTED_EDGE ( 'NONE', *, *, #31, .T. ) ;
#307 = ADVANCED_FACE ( 'NONE', ( #268 ), #113, .F. ) ;
#308 = FACE_OUTER_BOUND ( 'NONE', #70, .T. ) ;
#309 = PRODUCT_DEFINITION_FORMATION_WITH_SPECIFIED_SOURCE ( 'ANY', '', #253, .NOT_KNOWN. ) ;
#310 = AXIS2_PLACEMENT_3D ( 'NONE', #263, #37, #312 ) ;
#311 = CARTESIAN_POINT ( 'NONE',  ( 2.999999999999999112, 0.000000000000000000, 0.000000000000000000 ) ) ;
#312 = DIRECTION ( 'NONE',  ( 0.000000000000000000, 0.000000000000000000, 1.000000000000000000 ) ) ;
#313 = LINE ( 'NONE', #161, #260 ) ;
#314 = LINE ( 'NONE', #208, #38 ) ;
#315 = COORDINATED_UNIVERSAL_TIME_OFFSET ( 8, 0, .AHEAD. ) ;
#316 = AXIS2_PLACEMENT_3D ( 'NONE', #282, #195, #54 ) ;
#317 = AXIS2_PLACEMENT_3D ( 'NONE', #296, #64, #40 ) ;
#318 = EDGE_CURVE ( 'NONE', #151, #302, #47, .T. ) ;
#319 =( NAMED_UNIT ( * ) SI_UNIT ( $, .STERADIAN. ) SOLID_ANGLE_UNIT ( ) );
#320 = DIRECTION ( 'NONE',  ( -1.000000000000000000, -0.000000000000000000, -0.000000000000000000 ) ) ;
#321 = ORIENTED_EDGE ( 'NONE', *, *, #287, .F. ) ;
#322 = AXIS2_PLACEMENT_3D ( 'NONE', #182, #60, #286 ) ;
#323 = CARTESIAN_POINT ( 'NONE',  ( -1.614212418857619014, 0.000000000000000000, 0.000000000000000000 ) ) ;
#324 = PERSON_AND_ORGANIZATION ( #186, #330 ) ;
#325 = VERTEX_POINT ( 'NONE', #237 ) ;
#326 = ORIENTED_EDGE ( 'NONE', *, *, #220, .F. ) ;
#327 = UNCERTAINTY_MEASURE_WITH_UNIT (LENGTH_MEASURE( 1.000000000000000082E-05 ), #166, 'distance_accuracy_value', 'NONE');
#328 = ORIENTED_EDGE ( 'NONE', *, *, #143, .T. ) ;
#329 = ORIENTED_EDGE ( 'NONE', *, *, #214, .F. ) ;
#330 = ORGANIZATION ( 'UNSPECIFIED', 'UNSPECIFIED', '' ) ;
#331 = ADVANCED_FACE ( 'NONE', ( #215 ), #144, .F. ) ;
#332 = AXIS2_PLACEMENT_3D ( 'NONE', #183, #1, #105 ) ;
#333 = CARTESIAN_POINT ( 'NONE',  ( -1.614212418857619014, 1.224646799147353256E-15, -10.00000000000000000 ) ) ;
#334 = ADVANCED_FACE ( 'NONE', ( #235 ), #41, .F. ) ;
#335 = ORIENTED_EDGE ( 'NONE', *, *, #48, .T. ) ;
ENDSEC;
END-ISO-10303-21;
